ISO-10303-21;
HEADER;
FILE_DESCRIPTION (( 'STEP AP203' ),
    '1' );
FILE_NAME ('QM-CAQWP-20-450-650-M.STEP',
    '2021-01-05T02:45:03',
    ( '' ),
    ( '' ),
    'SwSTEP 2.0',
    'SolidWorks 2020',
    '' );
FILE_SCHEMA (( 'CONFIG_CONTROL_DESIGN' ));
ENDSEC;

DATA;
#1 = AXIS2_PLACEMENT_3D ( 'NONE', #41, #68, #213 ) ;
#2 = PERSON_AND_ORGANIZATION ( #322, #74 ) ;
#3 = DIRECTION ( 'NONE',  ( 0.000000000000000000, 0.000000000000000000, -1.000000000000000000 ) ) ;
#4 = ORIENTED_EDGE ( 'NONE', *, *, #69, .F. ) ;
#5 = EDGE_CURVE ( 'NONE', #87, #46, #202, .T. ) ;
#6 = PRODUCT_DEFINITION_FORMATION_WITH_SPECIFIED_SOURCE ( 'ANY', '', #244, .NOT_KNOWN. ) ;
#7 = ORIENTED_EDGE ( 'NONE', *, *, #66, .T. ) ;
#8 = LOCAL_TIME ( 10, 45, 3.000000000000000000, #134 ) ;
#9 = PERSON_AND_ORGANIZATION ( #322, #74 ) ;
#10 = CARTESIAN_POINT ( 'NONE',  ( 0.5000000000000013323, 0.000000000000000000, 0.000000000000000000 ) ) ;
#11 = APPROVAL_DATE_TIME ( #254, #260 ) ;
#12 = ORIENTED_EDGE ( 'NONE', *, *, #280, .F. ) ;
#13 = CIRCLE ( 'NONE', #273, 10.00000000000000000 ) ;
#14 = CARTESIAN_POINT ( 'NONE',  ( -0.5000000000000006661, 0.000000000000000000, 0.000000000000000000 ) ) ;
#15 = CARTESIAN_POINT ( 'NONE',  ( 2.999999999999999556, 12.69999999999999929, 0.000000000000000000 ) ) ;
#16 = CARTESIAN_POINT ( 'NONE',  ( -1.614212418857619014, 0.000000000000000000, 0.000000000000000000 ) ) ;
#17 = DIRECTION ( 'NONE',  ( 0.000000000000000000, 0.000000000000000000, -1.000000000000000000 ) ) ;
#18 = APPROVAL_PERSON_ORGANIZATION ( #284, #260, #286 ) ;
#19 = DIRECTION ( 'NONE',  ( 0.000000000000000000, 0.000000000000000000, 1.000000000000000000 ) ) ;
#20 = EDGE_CURVE ( 'NONE', #33, #171, #13, .T. ) ;
#21 = FACE_OUTER_BOUND ( 'NONE', #48, .T. ) ;
#22 = ORIENTED_EDGE ( 'NONE', *, *, #112, .F. ) ;
#23 = LINE ( 'NONE', #269, #67 ) ;
#24 = EDGE_LOOP ( 'NONE', ( #7, #288 ) ) ;
#25 = PRODUCT_DEFINITION ( 'UNKNOWN', '', #6, #199 ) ;
#26 = CARTESIAN_POINT ( 'NONE',  ( -1.614212418857619014, 0.000000000000000000, 12.69999999999999929 ) ) ;
#27 = AXIS2_PLACEMENT_3D ( 'NONE', #327, #264, #19 ) ;
#28 = DIRECTION ( 'NONE',  ( 0.000000000000000000, 0.000000000000000000, 1.000000000000000000 ) ) ;
#29 = APPLICATION_PROTOCOL_DEFINITION ( 'international standard', 'config_control_design', 1994, #151 ) ;
#30 = VERTEX_POINT ( 'NONE', #108 ) ;
#31 = VECTOR ( 'NONE', #305, 1000.000000000000000 ) ;
#32 = SECURITY_CLASSIFICATION_LEVEL ( 'unclassified' ) ;
#33 = VERTEX_POINT ( 'NONE', #186 ) ;
#34 = CIRCLE ( 'NONE', #130, 10.00000000000000000 ) ;
#35 = PERSON_AND_ORGANIZATION ( #322, #74 ) ;
#36 = VERTEX_POINT ( 'NONE', #111 ) ;
#37 = DIRECTION ( 'NONE',  ( 0.000000000000000000, 0.000000000000000000, 1.000000000000000000 ) ) ;
#38 = EDGE_LOOP ( 'NONE', ( #258, #243, #204, #129 ) ) ;
#39 = EDGE_CURVE ( 'NONE', #118, #180, #234, .T. ) ;
#40 = DIRECTION ( 'NONE',  ( -1.000000000000000000, -0.000000000000000000, -0.000000000000000000 ) ) ;
#41 = CARTESIAN_POINT ( 'NONE',  ( 2.999999999999999112, 0.000000000000000000, 0.000000000000000000 ) ) ;
#42 = CARTESIAN_POINT ( 'NONE',  ( 0.5000000000000006661, 10.00000000000000000, 0.000000000000000000 ) ) ;
#43 = AXIS2_PLACEMENT_3D ( 'NONE', #93, #139, #296 ) ;
#44 = EDGE_CURVE ( 'NONE', #178, #36, #172, .T. ) ;
#45 = DIRECTION ( 'NONE',  ( -1.000000000000000000, -0.000000000000000000, -0.000000000000000000 ) ) ;
#46 = VERTEX_POINT ( 'NONE', #207 ) ;
#47 = DIRECTION ( 'NONE',  ( -1.000000000000000000, -0.000000000000000000, -0.000000000000000000 ) ) ;
#48 = EDGE_LOOP ( 'NONE', ( #22, #122, #138, #206 ) ) ;
#49 = ADVANCED_FACE ( 'NONE', ( #319 ), #85, .T. ) ;
#50 = CYLINDRICAL_SURFACE ( 'NONE', #119, 10.00000000000000000 ) ;
#51 = APPROVAL ( #219, 'UNSPECIFIED' ) ;
#52 = ORIENTED_EDGE ( 'NONE', *, *, #201, .F. ) ;
#53 = PRODUCT_RELATED_PRODUCT_CATEGORY ( 'detail', '', ( #244 ) ) ;
#54 = LINE ( 'NONE', #26, #31 ) ;
#55 = ORIENTED_EDGE ( 'NONE', *, *, #39, .F. ) ;
#56 = PERSON_AND_ORGANIZATION_ROLE ( 'creator' ) ;
#57 = ORIENTED_EDGE ( 'NONE', *, *, #20, .F. ) ;
#58 = PERSON_AND_ORGANIZATION_ROLE ( 'classification_officer' ) ;
#59 = DIRECTION ( 'NONE',  ( 0.000000000000000000, 0.000000000000000000, 1.000000000000000000 ) ) ;
#60 = AXIS2_PLACEMENT_3D ( 'NONE', #311, #173, #150 ) ;
#61 = EDGE_LOOP ( 'NONE', ( #233, #55 ) ) ;
#62 = DIRECTION ( 'NONE',  ( -1.000000000000000000, -0.000000000000000000, -0.000000000000000000 ) ) ;
#63 = CC_DESIGN_SECURITY_CLASSIFICATION ( #190, ( #6 ) ) ;
#64 = FACE_OUTER_BOUND ( 'NONE', #331, .T. ) ;
#65 = PLANE ( 'NONE',  #292 ) ;
#66 = EDGE_CURVE ( 'NONE', #30, #220, #222, .T. ) ;
#67 = VECTOR ( 'NONE', #47, 1000.000000000000000 ) ;
#68 = DIRECTION ( 'NONE',  ( -1.000000000000000000, -0.000000000000000000, -0.000000000000000000 ) ) ;
#69 = EDGE_CURVE ( 'NONE', #144, #314, #248, .T. ) ;
#70 = CC_DESIGN_PERSON_AND_ORGANIZATION_ASSIGNMENT ( #35, #58, ( #190 ) ) ;
#71 = CARTESIAN_POINT ( 'NONE',  ( -0.5000000000000006661, 10.00000000000000000, 0.000000000000000000 ) ) ;
#72 = EDGE_CURVE ( 'NONE', #46, #178, #182, .T. ) ;
#73 =( LENGTH_UNIT ( ) NAMED_UNIT ( * ) SI_UNIT ( .MILLI., .METRE. ) );
#74 = ORGANIZATION ( 'UNSPECIFIED', 'UNSPECIFIED', '' ) ;
#75 = CARTESIAN_POINT ( 'NONE',  ( -1.614212418857619014, 0.000000000000000000, 0.000000000000000000 ) ) ;
#76 = ADVANCED_FACE ( 'NONE', ( #261, #114 ), #235, .F. ) ;
#77 = CC_DESIGN_DATE_AND_TIME_ASSIGNMENT ( #83, #181, ( #190 ) ) ;
#78 = DATE_AND_TIME ( #307, #255 ) ;
#79 = DIRECTION ( 'NONE',  ( -1.000000000000000000, -0.000000000000000000, -0.000000000000000000 ) ) ;
#80 = PERSON_AND_ORGANIZATION ( #322, #74 ) ;
#81 = ADVANCED_FACE ( 'NONE', ( #64 ), #236, .F. ) ;
#82 = DIRECTION ( 'NONE',  ( 0.000000000000000000, 0.000000000000000000, 1.000000000000000000 ) ) ;
#83 = DATE_AND_TIME ( #315, #161 ) ;
#84 = CARTESIAN_POINT ( 'NONE',  ( 2.999999999999999112, 0.000000000000000000, 0.000000000000000000 ) ) ;
#85 = CYLINDRICAL_SURFACE ( 'NONE', #267, 12.69999999999999929 ) ;
#86 = CARTESIAN_POINT ( 'NONE',  ( 3.000000000000000000, 0.000000000000000000, 0.000000000000000000 ) ) ;
#87 = VERTEX_POINT ( 'NONE', #115 ) ;
#88 = AXIS2_PLACEMENT_3D ( 'NONE', #14, #137, #316 ) ;
#89 = DIRECTION ( 'NONE',  ( 1.000000000000000000, 0.000000000000000000, 0.000000000000000000 ) ) ;
#90 = AXIS2_PLACEMENT_3D ( 'NONE', #75, #335, #274 ) ;
#91 = FACE_OUTER_BOUND ( 'NONE', #155, .T. ) ;
#92 = PRODUCT_DEFINITION_SHAPE ( 'NONE', 'NONE',  #25 ) ;
#93 = CARTESIAN_POINT ( 'NONE',  ( -1.614212418857619014, 0.000000000000000000, 0.000000000000000000 ) ) ;
#94 = AXIS2_PLACEMENT_3D ( 'NONE', #86, #106, #290 ) ;
#95 = DIRECTION ( 'NONE',  ( 0.000000000000000000, 0.000000000000000000, 1.000000000000000000 ) ) ;
#96 = CC_DESIGN_PERSON_AND_ORGANIZATION_ASSIGNMENT ( #198, #56, ( #25 ) ) ;
#97 = PERSON_AND_ORGANIZATION ( #322, #74 ) ;
#98 = ORIENTED_EDGE ( 'NONE', *, *, #283, .T. ) ;
#99 = AXIS2_PLACEMENT_3D ( 'NONE', #10, #183, #37 ) ;
#100 = AXIS2_PLACEMENT_3D ( 'NONE', #71, #117, #210 ) ;
#101 = APPROVAL_ROLE ( '' ) ;
#102 = ORIENTED_EDGE ( 'NONE', *, *, #308, .F. ) ;
#103 =( GEOMETRIC_REPRESENTATION_CONTEXT ( 3 ) GLOBAL_UNCERTAINTY_ASSIGNED_CONTEXT ( ( #276 ) ) GLOBAL_UNIT_ASSIGNED_CONTEXT ( ( #73, #176, #121 ) ) REPRESENTATION_CONTEXT ( 'NONE', 'WORKASPACE' ) );
#104 = ORIENTED_EDGE ( 'NONE', *, *, #187, .F. ) ;
#105 = PERSON_AND_ORGANIZATION_ROLE ( 'design_supplier' ) ;
#106 = DIRECTION ( 'NONE',  ( -1.000000000000000000, -0.000000000000000000, -0.000000000000000000 ) ) ;
#107 = SHAPE_DEFINITION_REPRESENTATION ( #92, #133 ) ;
#108 = CARTESIAN_POINT ( 'NONE',  ( -3.000000000000000000, 0.000000000000000000, 12.69999999999999929 ) ) ;
#109 = VECTOR ( 'NONE', #40, 1000.000000000000000 ) ;
#110 = VECTOR ( 'NONE', #324, 1000.000000000000000 ) ;
#111 = CARTESIAN_POINT ( 'NONE',  ( -3.000000000000000000, 1.224646799147353256E-15, -10.00000000000000000 ) ) ;
#112 = EDGE_CURVE ( 'NONE', #144, #220, #116, .T. ) ;
#113 = CARTESIAN_POINT ( 'NONE',  ( -1.614212418857619014, 0.000000000000000000, 10.00000000000000000 ) ) ;
#114 = FACE_BOUND ( 'NONE', #226, .T. ) ;
#115 = CARTESIAN_POINT ( 'NONE',  ( -0.5000000000000006661, 1.224646799147353256E-15, -10.00000000000000000 ) ) ;
#116 = LINE ( 'NONE', #332, #194 ) ;
#117 = DIRECTION ( 'NONE',  ( 1.000000000000000000, 0.000000000000000000, 0.000000000000000000 ) ) ;
#118 = VERTEX_POINT ( 'NONE', #197 ) ;
#119 = AXIS2_PLACEMENT_3D ( 'NONE', #166, #238, #295 ) ;
#120 = DIRECTION ( 'NONE',  ( 0.000000000000000000, 0.000000000000000000, 1.000000000000000000 ) ) ;
#121 =( NAMED_UNIT ( * ) SI_UNIT ( $, .STERADIAN. ) SOLID_ANGLE_UNIT ( ) );
#122 = ORIENTED_EDGE ( 'NONE', *, *, #69, .T. ) ;
#123 = AXIS2_PLACEMENT_3D ( 'NONE', #163, #62, #259 ) ;
#124 = CC_DESIGN_APPROVAL ( #252, ( #6 ) ) ;
#125 = PERSON_AND_ORGANIZATION ( #322, #74 ) ;
#126 = APPROVAL_DATE_TIME ( #78, #51 ) ;
#127 = ADVANCED_FACE ( 'NONE', ( #266 ), #65, .F. ) ;
#128 = APPROVAL_ROLE ( '' ) ;
#129 = ORIENTED_EDGE ( 'NONE', *, *, #309, .F. ) ;
#130 = AXIS2_PLACEMENT_3D ( 'NONE', #237, #45, #169 ) ;
#131 = COORDINATED_UNIVERSAL_TIME_OFFSET ( 8, 0, .AHEAD. ) ;
#132 = ORIENTED_EDGE ( 'NONE', *, *, #44, .T. ) ;
#133 = ADVANCED_BREP_SHAPE_REPRESENTATION ( 'QM-CAQWP-20-450-650-M', ( #306, #60 ), #103 ) ;
#134 = COORDINATED_UNIVERSAL_TIME_OFFSET ( 8, 0, .AHEAD. ) ;
#135 = ORIENTED_EDGE ( 'NONE', *, *, #283, .F. ) ;
#136 = AXIS2_PLACEMENT_3D ( 'NONE', #16, #285, #59 ) ;
#137 = DIRECTION ( 'NONE',  ( 1.000000000000000000, 0.000000000000000000, 0.000000000000000000 ) ) ;
#138 = ORIENTED_EDGE ( 'NONE', *, *, #309, .T. ) ;
#139 = DIRECTION ( 'NONE',  ( -1.000000000000000000, -0.000000000000000000, -0.000000000000000000 ) ) ;
#140 = DIRECTION ( 'NONE',  ( -1.000000000000000000, 0.000000000000000000, -0.000000000000000000 ) ) ;
#141 = LINE ( 'NONE', #329, #184 ) ;
#142 = ORIENTED_EDGE ( 'NONE', *, *, #20, .T. ) ;
#143 = CARTESIAN_POINT ( 'NONE',  ( 0.5000000000000013323, 0.000000000000000000, 0.000000000000000000 ) ) ;
#144 = VERTEX_POINT ( 'NONE', #145 ) ;
#145 = CARTESIAN_POINT ( 'NONE',  ( 3.000000000000000000, 1.555301434917138433E-15, -12.69999999999999929 ) ) ;
#146 = CIRCLE ( 'NONE', #223, 12.69999999999999929 ) ;
#147 = ORIENTED_EDGE ( 'NONE', *, *, #44, .F. ) ;
#148 = FACE_OUTER_BOUND ( 'NONE', #24, .T. ) ;
#149 = CARTESIAN_POINT ( 'NONE',  ( -3.000000000000000000, 10.00000000000000000, 0.000000000000000000 ) ) ;
#150 = DIRECTION ( 'NONE',  ( 1.000000000000000000, 0.000000000000000000, 0.000000000000000000 ) ) ;
#151 = APPLICATION_CONTEXT ( 'configuration controlled 3d designs of mechanical parts and assemblies' ) ;
#152 = PERSON_AND_ORGANIZATION_ROLE ( 'design_owner' ) ;
#153 = ADVANCED_FACE ( 'NONE', ( #214 ), #50, .F. ) ;
#154 = DATE_TIME_ROLE ( 'creation_date' ) ;
#155 = EDGE_LOOP ( 'NONE', ( #98, #312, #208, #203 ) ) ;
#156 = APPROVAL_DATE_TIME ( #317, #252 ) ;
#157 = DIRECTION ( 'NONE',  ( -1.000000000000000000, -0.000000000000000000, -0.000000000000000000 ) ) ;
#158 = AXIS2_PLACEMENT_3D ( 'NONE', #143, #242, #120 ) ;
#159 = DIRECTION ( 'NONE',  ( 0.000000000000000000, 0.000000000000000000, 1.000000000000000000 ) ) ;
#160 = EDGE_LOOP ( 'NONE', ( #135, #263 ) ) ;
#161 = LOCAL_TIME ( 10, 45, 3.000000000000000000, #131 ) ;
#162 = ADVANCED_FACE ( 'NONE', ( #293 ), #165, .F. ) ;
#163 = CARTESIAN_POINT ( 'NONE',  ( -3.000000000000000000, 0.000000000000000000, 0.000000000000000000 ) ) ;
#164 = EDGE_CURVE ( 'NONE', #220, #30, #304, .T. ) ;
#165 = PLANE ( 'NONE',  #100 ) ;
#166 = CARTESIAN_POINT ( 'NONE',  ( -1.614212418857619014, 0.000000000000000000, 0.000000000000000000 ) ) ;
#167 = CLOSED_SHELL ( 'NONE', ( #49, #217, #153, #127, #81, #318, #294, #174, #76, #162 ) ) ;
#168 = ORIENTED_EDGE ( 'NONE', *, *, #250, .T. ) ;
#169 = DIRECTION ( 'NONE',  ( 0.000000000000000000, 0.000000000000000000, 1.000000000000000000 ) ) ;
#170 = CARTESIAN_POINT ( 'NONE',  ( 2.999999999999999112, 1.224646799147353256E-15, -10.00000000000000000 ) ) ;
#171 = VERTEX_POINT ( 'NONE', #170 ) ;
#172 = CIRCLE ( 'NONE', #253, 10.00000000000000000 ) ;
#173 = DIRECTION ( 'NONE',  ( 0.000000000000000000, 0.000000000000000000, 1.000000000000000000 ) ) ;
#174 = ADVANCED_FACE ( 'NONE', ( #21 ), #195, .T. ) ;
#175 = CC_DESIGN_APPROVAL ( #260, ( #190 ) ) ;
#176 =( NAMED_UNIT ( * ) PLANE_ANGLE_UNIT ( ) SI_UNIT ( $, .RADIAN. ) );
#177 = FACE_OUTER_BOUND ( 'NONE', #270, .T. ) ;
#178 = VERTEX_POINT ( 'NONE', #212 ) ;
#179 = MECHANICAL_CONTEXT ( 'NONE', #151, 'mechanical' ) ;
#180 = VERTEX_POINT ( 'NONE', #268 ) ;
#181 = DATE_TIME_ROLE ( 'classification_date' ) ;
#182 = LINE ( 'NONE', #113, #109 ) ;
#183 = DIRECTION ( 'NONE',  ( -1.000000000000000000, -0.000000000000000000, -0.000000000000000000 ) ) ;
#184 = VECTOR ( 'NONE', #272, 1000.000000000000000 ) ;
#185 = CARTESIAN_POINT ( 'NONE',  ( -1.614212418857619014, 0.000000000000000000, 0.000000000000000000 ) ) ;
#186 = CARTESIAN_POINT ( 'NONE',  ( 2.999999999999999112, 0.000000000000000000, 10.00000000000000000 ) ) ;
#187 = EDGE_CURVE ( 'NONE', #171, #33, #211, .T. ) ;
#188 = DIRECTION ( 'NONE',  ( -1.000000000000000000, 0.000000000000000000, -0.000000000000000000 ) ) ;
#189 = LOCAL_TIME ( 10, 45, 3.000000000000000000, #205 ) ;
#190 = SECURITY_CLASSIFICATION ( '', '', #32 ) ;
#191 = CARTESIAN_POINT ( 'NONE',  ( -0.5000000000000006661, 0.000000000000000000, 0.000000000000000000 ) ) ;
#192 = DIRECTION ( 'NONE',  ( -1.000000000000000000, -0.000000000000000000, -0.000000000000000000 ) ) ;
#193 = CYLINDRICAL_SURFACE ( 'NONE', #43, 10.00000000000000000 ) ;
#194 = VECTOR ( 'NONE', #192, 1000.000000000000000 ) ;
#195 = CYLINDRICAL_SURFACE ( 'NONE', #287, 12.69999999999999929 ) ;
#196 = ORIENTED_EDGE ( 'NONE', *, *, #280, .T. ) ;
#197 = CARTESIAN_POINT ( 'NONE',  ( 0.5000000000000013323, 1.224646799147353256E-15, -10.00000000000000000 ) ) ;
#198 = PERSON_AND_ORGANIZATION ( #322, #74 ) ;
#199 = DESIGN_CONTEXT ( 'detailed design', #328, 'design' ) ;
#200 = COORDINATED_UNIVERSAL_TIME_OFFSET ( 8, 0, .AHEAD. ) ;
#201 = EDGE_CURVE ( 'NONE', #87, #36, #141, .T. ) ;
#202 = CIRCLE ( 'NONE', #88, 10.00000000000000000 ) ;
#203 = ORIENTED_EDGE ( 'NONE', *, *, #72, .F. ) ;
#204 = ORIENTED_EDGE ( 'NONE', *, *, #66, .F. ) ;
#205 = COORDINATED_UNIVERSAL_TIME_OFFSET ( 8, 0, .AHEAD. ) ;
#206 = ORIENTED_EDGE ( 'NONE', *, *, #164, .F. ) ;
#207 = CARTESIAN_POINT ( 'NONE',  ( -0.5000000000000006661, 0.000000000000000000, 10.00000000000000000 ) ) ;
#208 = ORIENTED_EDGE ( 'NONE', *, *, #241, .T. ) ;
#209 = EDGE_LOOP ( 'NONE', ( #104, #168, #300, #12 ) ) ;
#210 = DIRECTION ( 'NONE',  ( 0.000000000000000000, 0.000000000000000000, -1.000000000000000000 ) ) ;
#211 = CIRCLE ( 'NONE', #1, 10.00000000000000000 ) ;
#212 = CARTESIAN_POINT ( 'NONE',  ( -3.000000000000000000, 0.000000000000000000, 10.00000000000000000 ) ) ;
#213 = DIRECTION ( 'NONE',  ( 0.000000000000000000, 0.000000000000000000, 1.000000000000000000 ) ) ;
#214 = FACE_OUTER_BOUND ( 'NONE', #209, .T. ) ;
#215 = AXIS2_PLACEMENT_3D ( 'NONE', #149, #246, #3 ) ;
#216 = LINE ( 'NONE', #245, #110 ) ;
#217 = ADVANCED_FACE ( 'NONE', ( #91 ), #193, .F. ) ;
#218 = CC_DESIGN_DATE_AND_TIME_ASSIGNMENT ( #249, #154, ( #25 ) ) ;
#219 = APPROVAL_STATUS ( 'not_yet_approved' ) ;
#220 = VERTEX_POINT ( 'NONE', #299 ) ;
#221 = CARTESIAN_POINT ( 'NONE',  ( 3.000000000000000000, 0.000000000000000000, 12.69999999999999929 ) ) ;
#222 = CIRCLE ( 'NONE', #123, 12.69999999999999929 ) ;
#223 = AXIS2_PLACEMENT_3D ( 'NONE', #247, #79, #28 ) ;
#224 = APPLICATION_PROTOCOL_DEFINITION ( 'international standard', 'config_control_design', 1994, #328 ) ;
#225 = FACE_BOUND ( 'NONE', #256, .T. ) ;
#226 = EDGE_LOOP ( 'NONE', ( #142, #282 ) ) ;
#227 = CALENDAR_DATE ( 2021, 5, 1 ) ;
#228 = ORIENTED_EDGE ( 'NONE', *, *, #5, .T. ) ;
#229 = CIRCLE ( 'NONE', #298, 10.00000000000000000 ) ;
#230 = APPROVAL_STATUS ( 'not_yet_approved' ) ;
#231 = DIRECTION ( 'NONE',  ( -1.000000000000000000, -0.000000000000000000, -0.000000000000000000 ) ) ;
#232 = CALENDAR_DATE ( 2021, 5, 1 ) ;
#233 = ORIENTED_EDGE ( 'NONE', *, *, #271, .F. ) ;
#234 = CIRCLE ( 'NONE', #99, 10.00000000000000000 ) ;
#235 = PLANE ( 'NONE',  #297 ) ;
#236 = CYLINDRICAL_SURFACE ( 'NONE', #136, 10.00000000000000000 ) ;
#237 = CARTESIAN_POINT ( 'NONE',  ( -3.000000000000000000, 0.000000000000000000, 0.000000000000000000 ) ) ;
#238 = DIRECTION ( 'NONE',  ( -1.000000000000000000, -0.000000000000000000, -0.000000000000000000 ) ) ;
#239 = CARTESIAN_POINT ( 'NONE',  ( -1.614212418857619014, 0.000000000000000000, 0.000000000000000000 ) ) ;
#240 = ORIENTED_EDGE ( 'NONE', *, *, #271, .T. ) ;
#241 = EDGE_CURVE ( 'NONE', #36, #178, #34, .T. ) ;
#242 = DIRECTION ( 'NONE',  ( -1.000000000000000000, -0.000000000000000000, -0.000000000000000000 ) ) ;
#243 = ORIENTED_EDGE ( 'NONE', *, *, #112, .T. ) ;
#244 = PRODUCT ( 'QM-CAQWP-20-450-650-M', 'QM-CAQWP-20-450-650-M', '', ( #179 ) ) ;
#245 = CARTESIAN_POINT ( 'NONE',  ( -1.614212418857619014, 0.000000000000000000, 10.00000000000000000 ) ) ;
#246 = DIRECTION ( 'NONE',  ( 1.000000000000000000, 0.000000000000000000, 0.000000000000000000 ) ) ;
#247 = CARTESIAN_POINT ( 'NONE',  ( 3.000000000000000000, 0.000000000000000000, 0.000000000000000000 ) ) ;
#248 = CIRCLE ( 'NONE', #94, 12.69999999999999929 ) ;
#249 = DATE_AND_TIME ( #333, #326 ) ;
#250 = EDGE_CURVE ( 'NONE', #171, #118, #23, .T. ) ;
#251 = EDGE_LOOP ( 'NONE', ( #102, #4 ) ) ;
#252 = APPROVAL ( #230, 'UNSPECIFIED' ) ;
#253 = AXIS2_PLACEMENT_3D ( 'NONE', #320, #321, #159 ) ;
#254 = DATE_AND_TIME ( #232, #8 ) ;
#255 = LOCAL_TIME ( 10, 45, 3.000000000000000000, #200 ) ;
#256 = EDGE_LOOP ( 'NONE', ( #147, #303 ) ) ;
#257 = APPROVAL_STATUS ( 'not_yet_approved' ) ;
#258 = ORIENTED_EDGE ( 'NONE', *, *, #308, .T. ) ;
#259 = DIRECTION ( 'NONE',  ( 0.000000000000000000, 0.000000000000000000, 1.000000000000000000 ) ) ;
#260 = APPROVAL ( #257, 'UNSPECIFIED' ) ;
#261 = FACE_OUTER_BOUND ( 'NONE', #251, .T. ) ;
#262 = CC_DESIGN_APPROVAL ( #51, ( #25 ) ) ;
#263 = ORIENTED_EDGE ( 'NONE', *, *, #5, .F. ) ;
#264 = DIRECTION ( 'NONE',  ( -1.000000000000000000, -0.000000000000000000, -0.000000000000000000 ) ) ;
#265 = CC_DESIGN_PERSON_AND_ORGANIZATION_ASSIGNMENT ( #9, #313, ( #6 ) ) ;
#266 = FACE_OUTER_BOUND ( 'NONE', #61, .T. ) ;
#267 = AXIS2_PLACEMENT_3D ( 'NONE', #185, #157, #289 ) ;
#268 = CARTESIAN_POINT ( 'NONE',  ( 0.5000000000000013323, 0.000000000000000000, 10.00000000000000000 ) ) ;
#269 = CARTESIAN_POINT ( 'NONE',  ( -1.614212418857619014, 1.224646799147353256E-15, -10.00000000000000000 ) ) ;
#270 = EDGE_LOOP ( 'NONE', ( #52, #228, #279, #132 ) ) ;
#271 = EDGE_CURVE ( 'NONE', #180, #118, #325, .T. ) ;
#272 = DIRECTION ( 'NONE',  ( -1.000000000000000000, -0.000000000000000000, -0.000000000000000000 ) ) ;
#273 = AXIS2_PLACEMENT_3D ( 'NONE', #84, #231, #82 ) ;
#274 = DIRECTION ( 'NONE',  ( 0.000000000000000000, 0.000000000000000000, 1.000000000000000000 ) ) ;
#275 = APPROVAL_PERSON_ORGANIZATION ( #2, #51, #101 ) ;
#276 = UNCERTAINTY_MEASURE_WITH_UNIT (LENGTH_MEASURE( 1.000000000000000082E-05 ), #73, 'distance_accuracy_value', 'NONE');
#277 = PLANE ( 'NONE',  #215 ) ;
#278 = COORDINATED_UNIVERSAL_TIME_OFFSET ( 8, 0, .AHEAD. ) ;
#279 = ORIENTED_EDGE ( 'NONE', *, *, #72, .T. ) ;
#280 = EDGE_CURVE ( 'NONE', #33, #180, #216, .T. ) ;
#281 = CC_DESIGN_PERSON_AND_ORGANIZATION_ASSIGNMENT ( #125, #152, ( #244 ) ) ;
#282 = ORIENTED_EDGE ( 'NONE', *, *, #187, .T. ) ;
#283 = EDGE_CURVE ( 'NONE', #46, #87, #229, .T. ) ;
#284 = PERSON_AND_ORGANIZATION ( #322, #74 ) ;
#285 = DIRECTION ( 'NONE',  ( -1.000000000000000000, -0.000000000000000000, -0.000000000000000000 ) ) ;
#286 = APPROVAL_ROLE ( '' ) ;
#287 = AXIS2_PLACEMENT_3D ( 'NONE', #239, #330, #95 ) ;
#288 = ORIENTED_EDGE ( 'NONE', *, *, #164, .T. ) ;
#289 = DIRECTION ( 'NONE',  ( 0.000000000000000000, 0.000000000000000000, 1.000000000000000000 ) ) ;
#290 = DIRECTION ( 'NONE',  ( 0.000000000000000000, 0.000000000000000000, 1.000000000000000000 ) ) ;
#291 = DIRECTION ( 'NONE',  ( -0.000000000000000000, 0.000000000000000000, 1.000000000000000000 ) ) ;
#292 = AXIS2_PLACEMENT_3D ( 'NONE', #42, #140, #301 ) ;
#293 = FACE_OUTER_BOUND ( 'NONE', #160, .T. ) ;
#294 = ADVANCED_FACE ( 'NONE', ( #225, #148 ), #277, .F. ) ;
#295 = DIRECTION ( 'NONE',  ( 0.000000000000000000, 0.000000000000000000, 1.000000000000000000 ) ) ;
#296 = DIRECTION ( 'NONE',  ( 0.000000000000000000, 0.000000000000000000, 1.000000000000000000 ) ) ;
#297 = AXIS2_PLACEMENT_3D ( 'NONE', #15, #188, #291 ) ;
#298 = AXIS2_PLACEMENT_3D ( 'NONE', #191, #89, #17 ) ;
#299 = CARTESIAN_POINT ( 'NONE',  ( -3.000000000000000000, 1.555301434917138433E-15, -12.69999999999999929 ) ) ;
#300 = ORIENTED_EDGE ( 'NONE', *, *, #39, .T. ) ;
#301 = DIRECTION ( 'NONE',  ( -0.000000000000000000, 0.000000000000000000, 1.000000000000000000 ) ) ;
#302 = CYLINDRICAL_SURFACE ( 'NONE', #90, 10.00000000000000000 ) ;
#303 = ORIENTED_EDGE ( 'NONE', *, *, #241, .F. ) ;
#304 = CIRCLE ( 'NONE', #27, 12.69999999999999929 ) ;
#305 = DIRECTION ( 'NONE',  ( -1.000000000000000000, -0.000000000000000000, -0.000000000000000000 ) ) ;
#306 = MANIFOLD_SOLID_BREP ( 'Ðý×', #167 ) ;
#307 = CALENDAR_DATE ( 2021, 5, 1 ) ;
#308 = EDGE_CURVE ( 'NONE', #314, #144, #146, .T. ) ;
#309 = EDGE_CURVE ( 'NONE', #314, #30, #54, .T. ) ;
#310 = APPROVAL_PERSON_ORGANIZATION ( #97, #252, #128 ) ;
#311 = CARTESIAN_POINT ( 'NONE',  ( 0.000000000000000000, 0.000000000000000000, 0.000000000000000000 ) ) ;
#312 = ORIENTED_EDGE ( 'NONE', *, *, #201, .T. ) ;
#313 = PERSON_AND_ORGANIZATION_ROLE ( 'creator' ) ;
#314 = VERTEX_POINT ( 'NONE', #221 ) ;
#315 = CALENDAR_DATE ( 2021, 5, 1 ) ;
#316 = DIRECTION ( 'NONE',  ( 0.000000000000000000, 0.000000000000000000, -1.000000000000000000 ) ) ;
#317 = DATE_AND_TIME ( #227, #189 ) ;
#318 = ADVANCED_FACE ( 'NONE', ( #177 ), #302, .F. ) ;
#319 = FACE_OUTER_BOUND ( 'NONE', #38, .T. ) ;
#320 = CARTESIAN_POINT ( 'NONE',  ( -3.000000000000000000, 0.000000000000000000, 0.000000000000000000 ) ) ;
#321 = DIRECTION ( 'NONE',  ( -1.000000000000000000, -0.000000000000000000, -0.000000000000000000 ) ) ;
#322 = PERSON ( 'UNSPECIFIED', 'UNSPECIFIED', 'UNSPECIFIED', ('UNSPECIFIED'), ('UNSPECIFIED'), ('UNSPECIFIED') ) ;
#323 = CC_DESIGN_PERSON_AND_ORGANIZATION_ASSIGNMENT ( #80, #105, ( #6 ) ) ;
#324 = DIRECTION ( 'NONE',  ( -1.000000000000000000, -0.000000000000000000, -0.000000000000000000 ) ) ;
#325 = CIRCLE ( 'NONE', #158, 10.00000000000000000 ) ;
#326 = LOCAL_TIME ( 10, 45, 3.000000000000000000, #278 ) ;
#327 = CARTESIAN_POINT ( 'NONE',  ( -3.000000000000000000, 0.000000000000000000, 0.000000000000000000 ) ) ;
#328 = APPLICATION_CONTEXT ( 'configuration controlled 3d designs of mechanical parts and assemblies' ) ;
#329 = CARTESIAN_POINT ( 'NONE',  ( -1.614212418857619014, 1.224646799147353256E-15, -10.00000000000000000 ) ) ;
#330 = DIRECTION ( 'NONE',  ( -1.000000000000000000, -0.000000000000000000, -0.000000000000000000 ) ) ;
#331 = EDGE_LOOP ( 'NONE', ( #334, #57, #196, #240 ) ) ;
#332 = CARTESIAN_POINT ( 'NONE',  ( -1.614212418857619014, 1.555301434917138433E-15, -12.69999999999999929 ) ) ;
#333 = CALENDAR_DATE ( 2021, 5, 1 ) ;
#334 = ORIENTED_EDGE ( 'NONE', *, *, #250, .F. ) ;
#335 = DIRECTION ( 'NONE',  ( -1.000000000000000000, -0.000000000000000000, -0.000000000000000000 ) ) ;
ENDSEC;
END-ISO-10303-21;
